  0
SECTION
  2
HEADER
  9
$ACADVER
  1
AC1009
  9
$INSBASE
 10
45.81730979863192
 20
38.47826086956837
 30
0.0
  9
$EXTMIN
 10
45.40309623625883
 20
38.06404730719528
 30
0.0
  9
$EXTMAX
 10
161.6075546073179
 20
108.8924744319383
 30
0.0
  9
$LIMMIN
 10
0.0
 20
0.0
  9
$LIMMAX
 10
420.0
 20
297.0
  9
$ORTHOMODE
 70
     1
  9
$REGENMODE
 70
     0
  9
$FILLMODE
 70
     1
  9
$QTEXTMODE
 70
     0
  9
$MIRRTEXT
 70
     0
  9
$DRAGMODE
 70
     2
  9
$LTSCALE
 40
1.0
  9
$OSMODE
 70
     0
  9
$ATTMODE
 70
     1
  9
$TEXTSIZE
 40
3.5
  9
$TRACEWID
 40
0.1
  9
$TEXTSTYLE
  7
STANDARD
  9
$CLAYER
  8
0
  9
$CELTYPE
  6
BYLAYER
  9
$CECOLOR
 62
   256
  9
$DIMSCALE
 40
1.0
  9
$DIMASZ
 40
2.0
  9
$DIMEXO
 40
1.0
  9
$DIMDLI
 40
8.0
  9
$DIMRND
 40
0.0
  9
$DIMDLE
 40
0.0
  9
$DIMEXE
 40
2.0
  9
$DIMTP
 40
0.1
  9
$DIMTM
 40
0.1
  9
$DIMTXT
 40
3.5
  9
$DIMCEN
 40
2.0
  9
$DIMTSZ
 40
0.0
  9
$DIMTOL
 70
     0
  9
$DIMLIM
 70
     0
  9
$DIMTIH
 70
     0
  9
$DIMTOH
 70
     0
  9
$DIMSE1
 70
     0
  9
$DIMSE2
 70
     0
  9
$DIMTAD
 70
     1
  9
$DIMZIN
 70
     0
  9
$DIMBLK
  1

  9
$DIMASO
 70
     1
  9
$DIMSHO
 70
     0
  9
$DIMPOST
  1

  9
$DIMAPOST
  1

  9
$DIMALT
 70
     0
  9
$DIMALTD
 70
     2
  9
$DIMALTF
 40
25.39999999999999
  9
$DIMLFAC
 40
1.0
  9
$DIMTOFL
 70
     0
  9
$DIMTVP
 40
0.0
  9
$DIMTIX
 70
     0
  9
$DIMSOXD
 70
     0
  9
$DIMSAH
 70
     0
  9
$DIMBLK1
  1

  9
$DIMBLK2
  1

  9
$DIMSTYLE
  2
*UNNAMED
  9
$DIMCLRD
 70
     0
  9
$DIMCLRE
 70
     0
  9
$DIMCLRT
 70
     0
  9
$DIMTFAC
 40
1.0
  9
$DIMGAP
 40
0.09
  9
$LUNITS
 70
     2
  9
$LUPREC
 70
     3
  9
$SKETCHINC
 40
0.1
  9
$FILLETRAD
 40
20.0
  9
$AUNITS
 70
     0
  9
$AUPREC
 70
     1
  9
$MENU
  1

  9
$ELEVATION
 40
0.0
  9
$PELEVATION
 40
0.0
  9
$THICKNESS
 40
0.0
  9
$LIMCHECK
 70
     0
  9
$BLIPMODE
 70
     0
  9
$CHAMFERA
 40
0.0
  9
$CHAMFERB
 40
0.0
  9
$SKPOLY
 70
     1
  9
$TDCREATE
 40
2448544.532687615
  9
$TDUPDATE
 40
2449393.431892361
  9
$TDINDWG
 40
0.0098021991
  9
$TDUSRTIMER
 40
0.0098021991
  9
$USRTIMER
 70
     1
  9
$ANGBASE
 50
0.0
  9
$ANGDIR
 70
     0
  9
$PDMODE
 70
     0
  9
$PDSIZE
 40
0.0
  9
$PLINEWID
 40
0.0
  9
$COORDS
 70
     2
  9
$SPLFRAME
 70
     0
  9
$SPLINETYPE
 70
     6
  9
$SPLINESEGS
 70
     8
  9
$ATTDIA
 70
     1
  9
$ATTREQ
 70
     1
  9
$HANDLING
 70
     0
  9
$HANDSEED
  5
10B
  9
$SURFTAB1
 70
     6
  9
$SURFTAB2
 70
     6
  9
$SURFTYPE
 70
     6
  9
$SURFU
 70
     6
  9
$SURFV
 70
     6
  9
$UCSNAME
  2

  9
$UCSORG
 10
0.0
 20
0.0
 30
0.0
  9
$UCSXDIR
 10
1.0
 20
0.0
 30
0.0
  9
$UCSYDIR
 10
0.0
 20
1.0
 30
0.0
  9
$PUCSNAME
  2

  9
$PUCSORG
 10
0.0
 20
0.0
 30
0.0
  9
$PUCSXDIR
 10
1.0
 20
0.0
 30
0.0
  9
$PUCSYDIR
 10
0.0
 20
1.0
 30
0.0
  9
$USERI1
 70
     0
  9
$USERI2
 70
     3
  9
$USERI3
 70
    15
  9
$USERI4
 70
     0
  9
$USERI5
 70
     0
  9
$USERR1
 40
1.0
  9
$USERR2
 40
1.0
  9
$USERR3
 40
0.0
  9
$USERR4
 40
1.0
  9
$USERR5
 40
0.0
  9
$WORLDVIEW
 70
     1
  9
$SHADEDGE
 70
     3
  9
$SHADEDIF
 70
    70
  9
$TILEMODE
 70
     1
  9
$MAXACTVP
 70
    16
  9
$PINSBASE
 10
0.0
 20
0.0
 30
0.0
  9
$PLIMCHECK
 70
     0
  9
$PEXTMIN
 10
1.000000000000000E+20
 20
1.000000000000000E+20
 30
1.000000000000000E+20
  9
$PEXTMAX
 10
-1.000000000000000E+20
 20
-1.000000000000000E+20
 30
-1.000000000000000E+20
  9
$PLIMMIN
 10
0.0
 20
0.0
  9
$PLIMMAX
 10
12.0
 20
9.0
  9
$UNITMODE
 70
     0
  9
$VISRETAIN
 70
     0
  9
$PLINEGEN
 70
     0
  9
$PSLTSCALE
 70
     0
  9
$TREEDEPTH
 70
  3020
  9
$DWGCODEPAGE
  3
undefined
  0
ENDSEC
  0
SECTION
  2
TABLES
  0
TABLE
  2
VPORT
 70
     2
  0
VPORT
  2
*ACTIVE
 70
     0
 10
0.0
 20
0.0
 11
1.0
 21
1.0
 12
103.7124322029749
 22
83.86214919500675
 13
0.0
 23
0.0
 14
1.0
 24
1.0
 15
10.0
 25
10.0
 16
0.0
 26
0.0
 36
1.0
 17
0.0
 27
0.0
 37
0.0
 40
90.76777665087675
 41
1.275675675675675
 42
50.0
 43
0.0
 44
0.0
 50
0.0
 51
0.0
 71
     0
 72
   100
 73
     1
 74
     0
 75
     0
 76
     0
 77
     0
 78
     0
  0
ENDTAB
  0
TABLE
  2
LTYPE
 70
     2
  0
LTYPE
  2
AUSGEZOGEN
 70
    64
  3
Solid line
 72
    65
 73
     0
 40
0.0
  0
LTYPE
  2
ITEM-STRICHPUNKT
 70
    64
  3
__ . __ . __
 72
    65
 73
     4
 40
3.599999999999999
 49
2.399999999999999
 49
-0.6
 49
0.0
 49
-0.6
  0
ENDTAB
  0
TABLE
  2
LAYER
 70
     7
  0
LAYER
  2
0
 70
    64
 62
     7
  6
AUSGEZOGEN
  0
LAYER
  2
ITEM_50
 70
    64
 62
     7
  6
AUSGEZOGEN
  0
LAYER
  2
ITEM_25
 70
    64
 62
     3
  6
AUSGEZOGEN
  0
LAYER
  2
ITEM_STP
 70
    64
 62
     4
  6
ITEM-STRICHPUNKT
  0
LAYER
  2
AIT$STP
 70
     0
 62
     7
  6
AUSGEZOGEN
  0
LAYER
  2
ITEM_STPG
 70
    64
 62
     4
  6
ITEM-STRICHPUNKT
  0
LAYER
  2
AIT$25
 70
     0
 62
     7
  6
AUSGEZOGEN
  0
ENDTAB
  0
TABLE
  2
STYLE
 70
     1
  0
STYLE
  2
STANDARD
 70
     0
 40
0.0
 41
1.0
 50
0.0
 71
     0
 42
3.5
  3
iso
  4

  0
ENDTAB
  0
TABLE
  2
VIEW
 70
     0
  0
ENDTAB
  0
TABLE
  2
UCS
 70
     0
  0
ENDTAB
  0
TABLE
  2
APPID
 70
     1
  0
APPID
  2
ACAD
 70
    64
  0
ENDTAB
  0
TABLE
  2
DIMSTYLE
 70
     0
  0
ENDTAB
  0
ENDSEC
  0
SECTION
  2
BLOCKS
  0
ENDSEC
  0
SECTION
  2
ENTITIES
  0
LINE
  8
ITEM_STP
 10
66.31730979863515
 20
103.4782608695652
 30
0.0
 11
66.31730979863506
 21
83.47826086956521
 31
0.0
  0
LINE
  8
ITEM_STP
 10
52.81730979863515
 20
103.4782608695652
 30
0.0
 11
52.81730979863506
 21
83.47826086956521
 31
0.0
  0
ARC
  8
ITEM_50
 10
71.31730979863509
 20
106.4782608695652
 30
0.0
 40
2.0
 50
0.0
 51
90.0
  0
ARC
  8
ITEM_50
 10
47.81730979863509
 20
106.4782608695652
 30
0.0
 40
2.0
 50
90.0
 51
180.0
  0
ARC
  8
ITEM_50
 10
71.31730979863509
 20
96.47826086956521
 30
0.0
 40
2.0
 50
0.0
 51
90.0
  0
ARC
  8
ITEM_50
 10
47.81730979863509
 20
96.47826086956521
 30
0.0
 40
2.0
 50
90.0
 51
180.0
  0
LINE
  8
ITEM_50
 10
47.81730979863509
 20
98.47826086956521
 30
0.0
 11
71.31730979863509
 21
98.47826086956521
 31
0.0
  0
LINE
  8
ITEM_50
 10
73.31730979863509
 20
88.47826086956521
 30
0.0
 11
45.81730979863509
 21
88.47826086956521
 31
0.0
  0
LINE
  8
ITEM_50
 10
73.31730979863509
 20
88.47826086956521
 30
0.0
 11
73.31730979863509
 21
106.4782608695652
 31
0.0
  0
LINE
  8
ITEM_50
 10
47.81730979863509
 20
108.4782608695652
 30
0.0
 11
71.31730979863509
 21
108.4782608695652
 31
0.0
  0
LINE
  8
ITEM_50
 10
45.81730979863509
 20
88.47826086956521
 30
0.0
 11
45.81730979863509
 21
106.4782608695652
 31
0.0
  0
LINE
  8
ITEM_STP
 10
103.3173097986319
 20
99.82826086956208
 30
0.0
 11
103.3173097986319
 21
92.80249512517514
 31
0.0
  0
LINE
  8
ITEM_STP
 10
103.3173097986319
 20
99.82826086956208
 30
0.0
 11
96.29154405424502
 21
99.82826086956208
 31
0.0
  0
LINE
  8
ITEM_STP
 10
103.3173097986319
 20
99.82826086956208
 30
0.0
 11
103.3173097986319
 21
106.854026613949
 31
0.0
  0
LINE
  8
ITEM_STP
 10
103.3173097986319
 20
99.82826086956208
 30
0.0
 11
110.3430755430188
 21
99.82826086956208
 31
0.0
  0
ARC
  8
ITEM_50
 10
121.3173097986319
 20
96.478260869562
 30
0.0
 40
2.0
 50
0.0
 51
89.99999999999968
  0
ARC
  8
ITEM_50
 10
110.3173097986319
 20
106.478260869562
 30
0.0
 40
2.0
 50
0.0
 51
90.0
  0
ARC
  8
ITEM_50
 10
96.31730979863195
 20
106.478260869562
 30
0.0
 40
2.0
 50
90.0
 51
180.0
  0
ARC
  8
ITEM_50
 10
85.31730979863195
 20
96.47826086956206
 30
0.0
 40
2.0
 50
90.0
 51
180.0
  0
LINE
  8
ITEM_50
 10
98.31730979863195
 20
103.678260869562
 30
0.0
 11
108.3173097986319
 21
103.678260869562
 31
0.0
  0
LINE
  8
ITEM_50
 10
98.31730979863195
 20
95.97826086956206
 30
0.0
 11
108.3173097986319
 21
95.978260869562
 31
0.0
  0
LINE
  8
ITEM_50
 10
108.3173097986319
 20
93.97826086956206
 30
0.0
 11
98.31730979863195
 21
93.97826086956206
 31
0.0
  0
LINE
  8
ITEM_50
 10
108.3173097986319
 20
105.678260869562
 30
0.0
 11
108.3173097986319
 21
93.97826086956206
 31
0.0
  0
LINE
  8
ITEM_50
 10
98.31730979863195
 20
105.678260869562
 30
0.0
 11
108.3173097986319
 21
105.678260869562
 31
0.0
  0
LINE
  8
ITEM_50
 10
98.31730979863195
 20
93.97826086956206
 30
0.0
 11
98.31730979863195
 21
105.678260869562
 31
0.0
  0
LINE
  8
ITEM_STP
 10
118.3173097986319
 20
103.478260869562
 30
0.0
 11
118.3173097986319
 21
83.47826086956206
 31
0.0
  0
LINE
  8
ITEM_STP
 10
88.31730979863195
 20
103.478260869562
 30
0.0
 11
88.31730979863195
 21
83.47826086956206
 31
0.0
  0
LINE
  8
ITEM_50
 10
123.3173097986319
 20
88.478260869562
 30
0.0
 11
83.31730979863195
 21
88.47826086956206
 31
0.0
  0
LINE
  8
ITEM_50
 10
123.3173097986319
 20
96.478260869562
 30
0.0
 11
123.3173097986319
 21
88.478260869562
 31
0.0
  0
LINE
  8
ITEM_50
 10
112.3173097986319
 20
98.47826086956206
 30
0.0
 11
121.3173097986319
 21
98.478260869562
 31
0.0
  0
LINE
  8
ITEM_50
 10
112.3173097986319
 20
106.478260869562
 30
0.0
 11
112.3173097986319
 21
98.47826086956206
 31
0.0
  0
LINE
  8
ITEM_50
 10
96.31730979863195
 20
108.478260869562
 30
0.0
 11
110.3173097986319
 21
108.478260869562
 31
0.0
  0
LINE
  8
ITEM_50
 10
94.31730979863195
 20
98.47826086956206
 30
0.0
 11
94.31730979863195
 21
106.478260869562
 31
0.0
  0
LINE
  8
ITEM_50
 10
85.31730979863195
 20
98.47826086956206
 30
0.0
 11
94.31730979863195
 21
98.47826086956206
 31
0.0
  0
LINE
  8
ITEM_50
 10
83.31730979863195
 20
88.47826086956206
 30
0.0
 11
83.31730979863195
 21
96.47826086956206
 31
0.0
  0
LINE
  8
ITEM_50
 10
45.81730979863192
 20
66.47826086956837
 30
0.0
 11
45.81730979863192
 21
50.47826086956837
 31
0.0
  0
LINE
  8
ITEM_STP
 10
66.31730979863192
 20
43.47826086956837
 30
0.0
 11
66.31730979863192
 21
39.36783507707194
 31
0.0
  0
LINE
  8
ITEM_STP
 10
66.31730979863192
 20
43.47826086956837
 30
0.0
 11
70.42773559112833
 21
43.47826086956837
 31
0.0
  0
LINE
  8
ITEM_STP
 10
66.31730979863192
 20
43.47826086956837
 30
0.0
 11
66.31730979863192
 21
47.5886866620648
 31
0.0
  0
LINE
  8
ITEM_STP
 10
66.31730979863192
 20
43.47826086956837
 30
0.0
 11
59.56730979863192
 21
43.47826086956837
 31
0.0
  0
LINE
  8
ITEM_STP
 10
52.81730979863186
 20
43.47826086956837
 30
0.0
 11
59.56730979863192
 21
43.47826086956837
 31
0.0
  0
LINE
  8
ITEM_STP
 10
52.81730979863186
 20
43.47826086956837
 30
0.0
 11
52.81730979863186
 21
47.5886866620648
 31
0.0
  0
LINE
  8
ITEM_STP
 10
52.81730979863186
 20
43.47826086956837
 30
0.0
 11
52.81730979863186
 21
39.36783507707194
 31
0.0
  0
LINE
  8
ITEM_STP
 10
52.81730979863186
 20
43.47826086956837
 30
0.0
 11
48.70688400613545
 21
43.47826086956837
 31
0.0
  0
LINE
  8
ITEM_STP
 10
52.81730979863186
 20
73.47826086956837
 30
0.0
 11
48.70688400613545
 21
73.47826086956837
 31
0.0
  0
LINE
  8
ITEM_STP
 10
52.81730979863186
 20
73.47826086956837
 30
0.0
 11
52.81730979863186
 21
69.36783507707194
 31
0.0
  0
LINE
  8
ITEM_STP
 10
52.81730979863186
 20
73.47826086956837
 30
0.0
 11
52.81730979863186
 21
77.5886866620648
 31
0.0
  0
LINE
  8
ITEM_STP
 10
52.81730979863186
 20
73.47826086956837
 30
0.0
 11
59.56730979863192
 21
73.47826086956837
 31
0.0
  0
LINE
  8
ITEM_STP
 10
66.31730979863192
 20
73.47826086956837
 30
0.0
 11
59.56730979863192
 21
73.47826086956837
 31
0.0
  0
LINE
  8
ITEM_STP
 10
66.31730979863192
 20
73.47826086956837
 30
0.0
 11
66.31730979863192
 21
77.5886866620648
 31
0.0
  0
LINE
  8
ITEM_STP
 10
66.31730979863192
 20
73.47826086956837
 30
0.0
 11
70.42773559112833
 21
73.47826086956837
 31
0.0
  0
LINE
  8
ITEM_STP
 10
66.31730979863192
 20
73.47826086956837
 30
0.0
 11
66.31730979863192
 21
69.36783507707194
 31
0.0
  0
LINE
  8
ITEM_50
 10
71.31730979863192
 20
38.47826086956838
 30
0.0
 11
47.81730979863192
 21
38.47826086956837
 31
0.0
  0
ARC
  8
ITEM_50
 10
71.31730979863192
 20
40.47826086956838
 30
0.0
 40
2.0
 50
270.0
 51
359.9999999999999
  0
ARC
  8
ITEM_50
 10
47.81730979863192
 20
40.47826086956837
 30
0.0
 40
2.0
 50
180.0
 51
270.0
  0
ARC
  8
ITEM_50
 10
47.81730979863192
 20
76.47826086956837
 30
0.0
 40
2.0
 50
90.0
 51
180.0
  0
ARC
  8
ITEM_50
 10
71.31730979863195
 20
76.47826086956837
 30
0.0
 40
2.0
 50
0.0
 51
90.0
  0
ARC
  8
ITEM_50
 10
47.81730979863192
 20
51.47826086956837
 30
0.0
 40
2.0
 50
180.0
 51
270.0
  0
ARC
  8
ITEM_50
 10
47.81730979863192
 20
65.47826086956837
 30
0.0
 40
2.0
 50
90.0
 51
180.0
  0
ARC
  8
ITEM_50
 10
71.31730979863195
 20
51.47826086956837
 30
0.0
 40
2.0
 50
270.0
 51
0.0
  0
ARC
  8
ITEM_50
 10
71.31730979863195
 20
65.47826086956837
 30
0.0
 40
2.0
 50
0.0
 51
90.0
  0
LINE
  8
ITEM_50
 10
71.31730979863195
 20
49.47826086956837
 30
0.0
 11
47.81730979863192
 21
49.47826086956837
 31
0.0
  0
LINE
  8
ITEM_50
 10
71.31730979863195
 20
67.47826086956837
 30
0.0
 11
47.81730979863192
 21
67.47826086956837
 31
0.0
  0
LINE
  8
ITEM_50
 10
45.81730979863192
 20
40.47826086956837
 30
0.0
 11
45.81730979863192
 21
76.47826086956837
 31
0.0
  0
LINE
  8
ITEM_50
 10
73.31730979863195
 20
76.47826086956837
 30
0.0
 11
73.31730979863192
 21
40.47826086956838
 31
0.0
  0
LINE
  8
ITEM_50
 10
47.81730979863192
 20
78.47826086956837
 30
0.0
 11
71.31730979863195
 21
78.47826086956837
 31
0.0
  0
ARC
  8
ITEM_50
 10
52.81730979863189
 20
73.47826086956837
 30
0.0
 40
3.299999999999997
 50
89.9999999999995
 51
270.0000000000005
  0
LINE
  8
ITEM_50
 10
52.81730979863192
 20
76.77826086956837
 30
0.0
 11
66.31730979863192
 21
76.77826086956837
 31
0.0
  0
ARC
  8
ITEM_50
 10
66.31730979863192
 20
73.47826086956837
 30
0.0
 40
3.299999999999997
 50
270.0
 51
90.0
  0
LINE
  8
ITEM_50
 10
66.31730979863192
 20
70.17826086956837
 30
0.0
 11
52.81730979863192
 21
70.17826086956837
 31
0.0
  0
ARC
  8
ITEM_50
 10
52.81730979863189
 20
43.47826086956837
 30
0.0
 40
3.299999999999997
 50
89.9999999999995
 51
270.0000000000005
  0
LINE
  8
ITEM_50
 10
52.81730979863192
 20
46.77826086956837
 30
0.0
 11
66.31730979863192
 21
46.77826086956837
 31
0.0
  0
ARC
  8
ITEM_50
 10
66.31730979863192
 20
43.47826086956837
 30
0.0
 40
3.299999999999997
 50
270.0
 51
90.0
  0
LINE
  8
ITEM_50
 10
66.31730979863192
 20
40.17826086956837
 30
0.0
 11
52.81730979863192
 21
40.17826086956837
 31
0.0
  0
ARC
  8
ITEM_50
 10
152.2596616073179
 20
87.41603517107517
 30
0.0
 40
7.299999999999999
 50
274.714561
 51
85.28543899999999
  0
LINE
  8
ITEM_50
 10
151.6596616073179
 20
79.43856617107516
 30
0.0
 11
151.6596616073179
 21
95.39350317107516
 31
0.0
  0
LINE
  8
ITEM_50
 10
152.8596616073179
 20
79.43856617107516
 30
0.0
 11
152.8596616073179
 21
95.39350317107516
 31
0.0
  0
ARC
  8
ITEM_50
 10
152.2596616073179
 20
87.41603517107517
 30
0.0
 40
7.299999999999999
 50
94.714561
 51
265.2854389999999
  0
CIRCLE
  8
ITEM_50
 10
152.2596616073179
 20
87.41603517107517
 30
0.0
 40
8.0
  0
LINE
  8
ITEM_STPG
 10
152.2596616073179
 20
87.41603517107517
 30
0.0
 11
161.6075546073179
 21
87.41603517107517
 31
0.0
  0
LINE
  8
ITEM_STPG
 10
152.2596616073179
 20
87.41603517107517
 30
0.0
 11
152.2596616073179
 21
96.76392717107518
 31
0.0
  0
LINE
  8
ITEM_STPG
 10
152.2596616073179
 20
87.41603517107517
 30
0.0
 11
142.9117696073179
 21
87.41603517107517
 31
0.0
  0
LINE
  8
ITEM_STPG
 10
152.2596616073179
 20
87.41603517107517
 30
0.0
 11
152.2596616073179
 21
78.06814217107518
 31
0.0
  0
LINE
  8
ITEM_50
 10
154.2403824817697
 20
100.1231361710752
 30
0.0
 11
150.2403824817697
 21
100.1231361710752
 31
0.0
  0
LINE
  8
ITEM_50
 10
150.7403824817697
 20
99.6231361710752
 30
0.0
 11
150.2403824817697
 21
100.1231361710752
 31
0.0
  0
LINE
  8
ITEM_50
 10
154.2403824817697
 20
100.1231361710752
 30
0.0
 11
153.7403824817697
 21
99.6231361710752
 31
0.0
  0
LINE
  8
ITEM_50
 10
154.2403824817697
 20
100.1231361710752
 30
0.0
 11
154.2403824817697
 21
105.6231361710751
 31
0.0
  0
LINE
  8
ITEM_50
 10
150.2403824817697
 20
105.6231361710751
 30
0.0
 11
150.2403824817697
 21
100.1231361710752
 31
0.0
  0
LINE
  8
ITEM_50
 10
150.7403824817697
 20
99.6231361710752
 30
0.0
 11
153.7403824817697
 21
99.6231361710752
 31
0.0
  0
LINE
  8
ITEM_25
 62
     3
 10
150.7308824817697
 20
105.6231361710751
 30
0.0
 11
150.7308824817697
 21
99.6231361710752
 31
0.0
  0
LINE
  8
ITEM_25
 62
     3
 10
153.7498824817697
 20
105.6231361710751
 30
0.0
 11
153.7498824817697
 21
99.6231361710752
 31
0.0
  0
LINE
  8
ITEM_50
 10
152.8596616073179
 20
108.3231361710751
 30
0.0
 11
159.5596616073179
 21
108.3231361710751
 31
0.0
  0
LINE
  8
0
 10
152.8596616073179
 20
107.6231361710751
 30
0.0
 11
152.8596616073179
 21
108.3231361710751
 31
0.0
  0
LINE
  8
0
 10
151.6596616073179
 20
107.6231361710751
 30
0.0
 11
152.8596616073179
 21
107.6231361710751
 31
0.0
  0
LINE
  8
0
 10
151.6596616073179
 20
108.3231361710751
 30
0.0
 11
151.6596616073179
 21
107.6231361710751
 31
0.0
  0
LINE
  8
0
 10
144.2596616073179
 20
107.6231361710751
 30
0.0
 11
160.2596616073179
 21
107.6231361710751
 31
0.0
  0
LINE
  8
0
 10
159.5596616073179
 20
108.3231361710751
 30
0.0
 11
160.2596616073179
 21
107.6231361710751
 31
0.0
  0
LINE
  8
0
 10
144.9596616073179
 20
108.3231361710751
 30
0.0
 11
144.2596616073179
 21
107.6231361710751
 31
0.0
  0
LINE
  8
0
 10
160.2596616073179
 20
107.6231361710751
 30
0.0
 11
160.2596616073179
 21
105.6231361710751
 31
0.0
  0
LINE
  8
ITEM_50
 10
144.9596616073179
 20
108.3231361710751
 30
0.0
 11
151.6596616073179
 21
108.3231361710751
 31
0.0
  0
LINE
  8
ITEM_STPG
 10
152.2596616073179
 20
100.2901121710751
 30
0.0
 11
152.2596616073179
 21
108.7957971710751
 31
0.0
  0
LINE
  8
ITEM_50
 10
144.2596616073179
 20
105.6231361710751
 30
0.0
 11
160.2596616073179
 21
105.6231361710751
 31
0.0
  0
LINE
  8
0
 10
144.2596616073179
 20
107.6231361710751
 30
0.0
 11
144.2596616073179
 21
105.6231361710751
 31
0.0
  0
ENDSEC
  0
EOF
